ISO-10303-21;
HEADER;
FILE_DESCRIPTION (( 'STEP AP203' ),
    '1' );
FILE_NAME ('AL-HD0017-1 Âûñîêîòî÷íàÿ äèñòàíöèîííàÿ øàéáà 8x12 ìì.STEP',
    '2024-12-12T07:45:34',
    ( '' ),
    ( '' ),
    'SwSTEP 2.0',
    'SolidWorks 2021',
    '' );
FILE_SCHEMA (( 'CONFIG_CONTROL_DESIGN' ));
ENDSEC;

DATA;
#1 = ORIENTED_EDGE ( 'NONE', *, *, #33, .T. ) ;
#2 = APPROVAL_PERSON_ORGANIZATION ( #52, #217, #171 ) ;
#3 = DIRECTION ( 'NONE',  ( -0.000000000000000000, -0.000000000000000000, -1.000000000000000000 ) ) ;
#4 = EDGE_CURVE ( 'NONE', #62, #141, #134, .T. ) ;
#5 = CARTESIAN_POINT ( 'NONE',  ( 0.000000000000000000, 0.000000000000000000, 0.000000000000000000 ) ) ;
#6 = ORIENTED_EDGE ( 'NONE', *, *, #54, .F. ) ;
#7 = PLANE ( 'NONE',  #15 ) ;
#8 = APPLICATION_CONTEXT ( 'configuration controlled 3d designs of mechanical parts and assemblies' ) ;
#9 = FACE_OUTER_BOUND ( 'NONE', #75, .T. ) ;
#10 = LINE ( 'NONE', #220, #74 ) ;
#11 = ORGANIZATION ( 'UNSPECIFIED', 'UNSPECIFIED', '' ) ;
#12 = COORDINATED_UNIVERSAL_TIME_OFFSET ( 3, 0, .AHEAD. ) ;
#13 = EDGE_CURVE ( 'NONE', #141, #62, #23, .T. ) ;
#14 =( NAMED_UNIT ( * ) SI_UNIT ( $, .STERADIAN. ) SOLID_ANGLE_UNIT ( ) );
#15 = AXIS2_PLACEMENT_3D ( 'NONE', #36, #240, #183 ) ;
#16 = EDGE_LOOP ( 'NONE', ( #238, #166, #136, #72 ) ) ;
#17 = ORIENTED_EDGE ( 'NONE', *, *, #80, .F. ) ;
#18 = LOCAL_TIME ( 10, 45, 34.00000000000000000, #227 ) ;
#19 = CARTESIAN_POINT ( 'NONE',  ( 0.000000000000000000, 0.000000000000000000, 1.000000000000000000 ) ) ;
#20 = DIRECTION ( 'NONE',  ( 0.000000000000000000, 0.000000000000000000, 1.000000000000000000 ) ) ;
#21 = DIRECTION ( 'NONE',  ( 1.000000000000000000, 0.000000000000000000, 0.000000000000000000 ) ) ;
#22 = DIRECTION ( 'NONE',  ( -1.000000000000000000, 0.000000000000000000, 0.000000000000000000 ) ) ;
#23 = CIRCLE ( 'NONE', #112, 4.000000000000000000 ) ;
#24 = FACE_OUTER_BOUND ( 'NONE', #179, .T. ) ;
#25 = EDGE_CURVE ( 'NONE', #182, #160, #177, .T. ) ;
#26 = DIRECTION ( 'NONE',  ( 0.000000000000000000, 0.000000000000000000, 1.000000000000000000 ) ) ;
#27 = PLANE ( 'NONE',  #209 ) ;
#28 = CC_DESIGN_PERSON_AND_ORGANIZATION_ASSIGNMENT ( #67, #47, ( #244 ) ) ;
#29 = AXIS2_PLACEMENT_3D ( 'NONE', #83, #138, #22 ) ;
#30 = PERSON_AND_ORGANIZATION_ROLE ( 'design_supplier' ) ;
#31 = APPLICATION_PROTOCOL_DEFINITION ( 'international standard', 'config_control_design', 1994, #8 ) ;
#32 = CARTESIAN_POINT ( 'NONE',  ( 6.000000000000000888, 7.347880794884120722E-16, 1.000000000000000000 ) ) ;
#33 = EDGE_CURVE ( 'NONE', #37, #181, #213, .T. ) ;
#34 = AXIS2_PLACEMENT_3D ( 'NONE', #19, #3, #163 ) ;
#35 = ORIENTED_EDGE ( 'NONE', *, *, #180, .T. ) ;
#36 = CARTESIAN_POINT ( 'NONE',  ( 0.000000000000000000, 0.000000000000000000, 1.000000000000000000 ) ) ;
#37 = VERTEX_POINT ( 'NONE', #197 ) ;
#38 = LOCAL_TIME ( 10, 45, 34.00000000000000000, #51 ) ;
#39 = CYLINDRICAL_SURFACE ( 'NONE', #170, 6.000000000000000888 ) ;
#40 = ORIENTED_EDGE ( 'NONE', *, *, #54, .T. ) ;
#41 = CARTESIAN_POINT ( 'NONE',  ( 0.000000000000000000, 0.000000000000000000, 1.000000000000000000 ) ) ;
#42 = CARTESIAN_POINT ( 'NONE',  ( -6.000000000000000888, 0.000000000000000000, 0.000000000000000000 ) ) ;
#43 = DIRECTION ( 'NONE',  ( 0.000000000000000000, 0.000000000000000000, 1.000000000000000000 ) ) ;
#44 = DATE_AND_TIME ( #105, #18 ) ;
#45 = DIRECTION ( 'NONE',  ( -0.000000000000000000, -0.000000000000000000, -1.000000000000000000 ) ) ;
#46 = ADVANCED_FACE ( 'NONE', ( #24 ), #123, .T. ) ;
#47 = PERSON_AND_ORGANIZATION_ROLE ( 'design_owner' ) ;
#48 = AXIS2_PLACEMENT_3D ( 'NONE', #216, #59, #161 ) ;
#49 = CALENDAR_DATE ( 2024, 12, 12 ) ;
#50 = APPLICATION_CONTEXT ( 'configuration controlled 3d designs of mechanical parts and assemblies' ) ;
#51 = COORDINATED_UNIVERSAL_TIME_OFFSET ( 3, 0, .AHEAD. ) ;
#52 = PERSON_AND_ORGANIZATION ( #192, #11 ) ;
#53 = VECTOR ( 'NONE', #45, 1000.000000000000000 ) ;
#54 = EDGE_CURVE ( 'NONE', #37, #133, #10, .T. ) ;
#55 = AXIS2_PLACEMENT_3D ( 'NONE', #41, #144, #169 ) ;
#56 = ORIENTED_EDGE ( 'NONE', *, *, #13, .T. ) ;
#57 = LINE ( 'NONE', #100, #121 ) ;
#58 = EDGE_LOOP ( 'NONE', ( #17, #103 ) ) ;
#59 = DIRECTION ( 'NONE',  ( -0.000000000000000000, -0.000000000000000000, -1.000000000000000000 ) ) ;
#60 = CIRCLE ( 'NONE', #87, 6.000000000000000888 ) ;
#61 = CARTESIAN_POINT ( 'NONE',  ( 0.000000000000000000, 0.000000000000000000, 0.000000000000000000 ) ) ;
#62 = VERTEX_POINT ( 'NONE', #167 ) ;
#63 = COORDINATED_UNIVERSAL_TIME_OFFSET ( 3, 0, .AHEAD. ) ;
#64 = CARTESIAN_POINT ( 'NONE',  ( 0.000000000000000000, 0.000000000000000000, 0.000000000000000000 ) ) ;
#65 = DATE_AND_TIME ( #109, #70 ) ;
#66 = FACE_BOUND ( 'NONE', #230, .T. ) ;
#67 = PERSON_AND_ORGANIZATION ( #192, #11 ) ;
#68 = APPROVAL_STATUS ( 'not_yet_approved' ) ;
#69 = CARTESIAN_POINT ( 'NONE',  ( 0.000000000000000000, 0.000000000000000000, 0.000000000000000000 ) ) ;
#70 = LOCAL_TIME ( 10, 45, 34.00000000000000000, #12 ) ;
#71 = CC_DESIGN_PERSON_AND_ORGANIZATION_ASSIGNMENT ( #145, #86, ( #215 ) ) ;
#72 = ORIENTED_EDGE ( 'NONE', *, *, #225, .F. ) ;
#73 = LOCAL_TIME ( 10, 45, 34.00000000000000000, #126 ) ;
#74 = VECTOR ( 'NONE', #120, 1000.000000000000000 ) ;
#75 = EDGE_LOOP ( 'NONE', ( #1, #104 ) ) ;
#76 = EDGE_LOOP ( 'NONE', ( #96, #232 ) ) ;
#77 = FACE_OUTER_BOUND ( 'NONE', #234, .T. ) ;
#78 = DIRECTION ( 'NONE',  ( 0.000000000000000000, 0.000000000000000000, 1.000000000000000000 ) ) ;
#79 = CC_DESIGN_DATE_AND_TIME_ASSIGNMENT ( #147, #187, ( #90 ) ) ;
#80 = EDGE_CURVE ( 'NONE', #133, #119, #93, .T. ) ;
#81 = CARTESIAN_POINT ( 'NONE',  ( 0.000000000000000000, 0.000000000000000000, 1.000000000000000000 ) ) ;
#82 = ORIENTED_EDGE ( 'NONE', *, *, #99, .F. ) ;
#83 = CARTESIAN_POINT ( 'NONE',  ( 0.000000000000000000, 0.000000000000000000, 1.000000000000000000 ) ) ;
#84 = APPROVAL_DATE_TIME ( #149, #212 ) ;
#85 = DIRECTION ( 'NONE',  ( 1.000000000000000000, 0.000000000000000000, 0.000000000000000000 ) ) ;
#86 = PERSON_AND_ORGANIZATION_ROLE ( 'creator' ) ;
#87 = AXIS2_PLACEMENT_3D ( 'NONE', #69, #108, #127 ) ;
#88 = CARTESIAN_POINT ( 'NONE',  ( 4.000000000000000000, 4.898587196589412829E-16, 1.000000000000000000 ) ) ;
#89 = DATE_AND_TIME ( #242, #157 ) ;
#90 = SECURITY_CLASSIFICATION ( '', '', #224 ) ;
#91 = CC_DESIGN_PERSON_AND_ORGANIZATION_ASSIGNMENT ( #125, #222, ( #90 ) ) ;
#92 = UNCERTAINTY_MEASURE_WITH_UNIT (LENGTH_MEASURE( 1.000000000000000082E-05 ), #206, 'distance_accuracy_value', 'NONE');
#93 = CIRCLE ( 'NONE', #202, 6.000000000000000888 ) ;
#94 = PRODUCT_DEFINITION ( 'UNKNOWN', '', #215, #132 ) ;
#95 = ORIENTED_EDGE ( 'NONE', *, *, #4, .F. ) ;
#96 = ORIENTED_EDGE ( 'NONE', *, *, #190, .F. ) ;
#97 = CARTESIAN_POINT ( 'NONE',  ( 6.000000000000000888, 7.347880794884120722E-16, 0.000000000000000000 ) ) ;
#98 = DIRECTION ( 'NONE',  ( -0.000000000000000000, -0.000000000000000000, -1.000000000000000000 ) ) ;
#99 = EDGE_CURVE ( 'NONE', #182, #62, #57, .T. ) ;
#100 = CARTESIAN_POINT ( 'NONE',  ( 4.000000000000000000, 4.898587196589412829E-16, 1.000000000000000000 ) ) ;
#101 = DIRECTION ( 'NONE',  ( 1.000000000000000000, 0.000000000000000000, 0.000000000000000000 ) ) ;
#102 = PERSON_AND_ORGANIZATION ( #192, #11 ) ;
#103 = ORIENTED_EDGE ( 'NONE', *, *, #231, .F. ) ;
#104 = ORIENTED_EDGE ( 'NONE', *, *, #116, .T. ) ;
#105 = CALENDAR_DATE ( 2024, 12, 12 ) ;
#106 = APPROVAL_PERSON_ORGANIZATION ( #241, #218, #129 ) ;
#107 = MECHANICAL_CONTEXT ( 'NONE', #8, 'mechanical' ) ;
#108 = DIRECTION ( 'NONE',  ( 0.000000000000000000, 0.000000000000000000, 1.000000000000000000 ) ) ;
#109 = CALENDAR_DATE ( 2024, 12, 12 ) ;
#110 =( NAMED_UNIT ( * ) PLANE_ANGLE_UNIT ( ) SI_UNIT ( $, .RADIAN. ) );
#111 = AXIS2_PLACEMENT_3D ( 'NONE', #5, #140, #101 ) ;
#112 = AXIS2_PLACEMENT_3D ( 'NONE', #61, #78, #114 ) ;
#113 = ADVANCED_BREP_SHAPE_REPRESENTATION ( 'AL-HD0017-1 Tv¸þúþªþ¢ýð  ôø¸ªðý¡øþýýð  °ðùñð 8x12 üü', ( #164, #229 ), #162 ) ;
#114 = DIRECTION ( 'NONE',  ( 1.000000000000000000, 0.000000000000000000, 0.000000000000000000 ) ) ;
#115 = ORIENTED_EDGE ( 'NONE', *, *, #4, .T. ) ;
#116 = EDGE_CURVE ( 'NONE', #181, #37, #245, .T. ) ;
#117 = CARTESIAN_POINT ( 'NONE',  ( 6.000000000000000888, 7.347880794884120722E-16, 1.000000000000000000 ) ) ;
#118 = PRODUCT_DEFINITION_SHAPE ( 'NONE', 'NONE',  #94 ) ;
#119 = VERTEX_POINT ( 'NONE', #97 ) ;
#120 = DIRECTION ( 'NONE',  ( -0.000000000000000000, -0.000000000000000000, -1.000000000000000000 ) ) ;
#121 = VECTOR ( 'NONE', #98, 1000.000000000000000 ) ;
#122 = ORIENTED_EDGE ( 'NONE', *, *, #116, .F. ) ;
#123 = CYLINDRICAL_SURFACE ( 'NONE', #34, 6.000000000000000888 ) ;
#124 = CARTESIAN_POINT ( 'NONE',  ( 0.000000000000000000, 0.000000000000000000, 0.000000000000000000 ) ) ;
#125 = PERSON_AND_ORGANIZATION ( #192, #11 ) ;
#126 = COORDINATED_UNIVERSAL_TIME_OFFSET ( 3, 0, .AHEAD. ) ;
#127 = DIRECTION ( 'NONE',  ( 1.000000000000000000, 0.000000000000000000, 0.000000000000000000 ) ) ;
#128 = ADVANCED_FACE ( 'NONE', ( #9, #135 ), #7, .T. ) ;
#129 = APPROVAL_ROLE ( '' ) ;
#130 = LINE ( 'NONE', #223, #53 ) ;
#131 = PERSON_AND_ORGANIZATION ( #192, #11 ) ;
#132 = DESIGN_CONTEXT ( 'detailed design', #50, 'design' ) ;
#133 = VERTEX_POINT ( 'NONE', #42 ) ;
#134 = CIRCLE ( 'NONE', #111, 4.000000000000000000 ) ;
#135 = FACE_BOUND ( 'NONE', #76, .T. ) ;
#136 = ORIENTED_EDGE ( 'NONE', *, *, #13, .F. ) ;
#137 = ADVANCED_FACE ( 'NONE', ( #77 ), #205, .F. ) ;
#138 = DIRECTION ( 'NONE',  ( -0.000000000000000000, -0.000000000000000000, -1.000000000000000000 ) ) ;
#139 = VECTOR ( 'NONE', #200, 1000.000000000000000 ) ;
#140 = DIRECTION ( 'NONE',  ( 0.000000000000000000, 0.000000000000000000, 1.000000000000000000 ) ) ;
#141 = VERTEX_POINT ( 'NONE', #236 ) ;
#142 = CC_DESIGN_SECURITY_CLASSIFICATION ( #90, ( #215 ) ) ;
#143 = DIRECTION ( 'NONE',  ( -1.000000000000000000, 0.000000000000000000, 0.000000000000000000 ) ) ;
#144 = DIRECTION ( 'NONE',  ( 0.000000000000000000, 0.000000000000000000, 1.000000000000000000 ) ) ;
#145 = PERSON_AND_ORGANIZATION ( #192, #11 ) ;
#146 = ADVANCED_FACE ( 'NONE', ( #159 ), #233, .F. ) ;
#147 = DATE_AND_TIME ( #176, #73 ) ;
#148 = DIRECTION ( 'NONE',  ( 1.000000000000000000, 0.000000000000000000, 0.000000000000000000 ) ) ;
#149 = DATE_AND_TIME ( #49, #38 ) ;
#150 = ORIENTED_EDGE ( 'NONE', *, *, #33, .F. ) ;
#151 = ADVANCED_FACE ( 'NONE', ( #184 ), #39, .T. ) ;
#152 = FACE_OUTER_BOUND ( 'NONE', #58, .T. ) ;
#153 = APPROVAL_DATE_TIME ( #44, #217 ) ;
#154 = APPROVAL_ROLE ( '' ) ;
#155 = APPROVAL_STATUS ( 'not_yet_approved' ) ;
#156 = APPROVAL_PERSON_ORGANIZATION ( #175, #212, #154 ) ;
#157 = LOCAL_TIME ( 10, 45, 34.00000000000000000, #63 ) ;
#158 = ORIENTED_EDGE ( 'NONE', *, *, #225, .T. ) ;
#159 = FACE_OUTER_BOUND ( 'NONE', #16, .T. ) ;
#160 = VERTEX_POINT ( 'NONE', #204 ) ;
#161 = DIRECTION ( 'NONE',  ( -1.000000000000000000, 0.000000000000000000, 0.000000000000000000 ) ) ;
#162 =( GEOMETRIC_REPRESENTATION_CONTEXT ( 3 ) GLOBAL_UNCERTAINTY_ASSIGNED_CONTEXT ( ( #92 ) ) GLOBAL_UNIT_ASSIGNED_CONTEXT ( ( #206, #110, #14 ) ) REPRESENTATION_CONTEXT ( 'NONE', 'WORKASPACE' ) );
#163 = DIRECTION ( 'NONE',  ( -1.000000000000000000, 0.000000000000000000, 0.000000000000000000 ) ) ;
#164 = MANIFOLD_SOLID_BREP ( 'Áîáûøêà-Âûòÿíóòü1', #249 ) ;
#165 = ORIENTED_EDGE ( 'NONE', *, *, #180, .F. ) ;
#166 = ORIENTED_EDGE ( 'NONE', *, *, #99, .T. ) ;
#167 = CARTESIAN_POINT ( 'NONE',  ( 4.000000000000000000, 4.898587196589412829E-16, 0.000000000000000000 ) ) ;
#168 = PERSON_AND_ORGANIZATION_ROLE ( 'creator' ) ;
#169 = DIRECTION ( 'NONE',  ( 1.000000000000000000, 0.000000000000000000, 0.000000000000000000 ) ) ;
#170 = AXIS2_PLACEMENT_3D ( 'NONE', #81, #237, #143 ) ;
#171 = APPROVAL_ROLE ( '' ) ;
#172 = CC_DESIGN_PERSON_AND_ORGANIZATION_ASSIGNMENT ( #131, #168, ( #94 ) ) ;
#173 = CC_DESIGN_APPROVAL ( #218, ( #215 ) ) ;
#174 = AXIS2_PLACEMENT_3D ( 'NONE', #214, #185, #85 ) ;
#175 = PERSON_AND_ORGANIZATION ( #192, #11 ) ;
#176 = CALENDAR_DATE ( 2024, 12, 12 ) ;
#177 = CIRCLE ( 'NONE', #194, 4.000000000000000000 ) ;
#178 = CIRCLE ( 'NONE', #196, 4.000000000000000000 ) ;
#179 = EDGE_LOOP ( 'NONE', ( #165, #150, #40, #198 ) ) ;
#180 = EDGE_CURVE ( 'NONE', #181, #119, #221, .T. ) ;
#181 = VERTEX_POINT ( 'NONE', #32 ) ;
#182 = VERTEX_POINT ( 'NONE', #88 ) ;
#183 = DIRECTION ( 'NONE',  ( 1.000000000000000000, 0.000000000000000000, -0.000000000000000000 ) ) ;
#184 = FACE_OUTER_BOUND ( 'NONE', #188, .T. ) ;
#185 = DIRECTION ( 'NONE',  ( 0.000000000000000000, 0.000000000000000000, 1.000000000000000000 ) ) ;
#186 = CARTESIAN_POINT ( 'NONE',  ( 0.000000000000000000, 0.000000000000000000, 0.000000000000000000 ) ) ;
#187 = DATE_TIME_ROLE ( 'classification_date' ) ;
#188 = EDGE_LOOP ( 'NONE', ( #122, #35, #201, #6 ) ) ;
#189 = DIRECTION ( 'NONE',  ( 0.000000000000000000, 0.000000000000000000, 1.000000000000000000 ) ) ;
#190 = EDGE_CURVE ( 'NONE', #160, #182, #178, .T. ) ;
#191 = CC_DESIGN_APPROVAL ( #212, ( #94 ) ) ;
#192 = PERSON ( 'UNSPECIFIED', 'UNSPECIFIED', 'UNSPECIFIED', ('UNSPECIFIED'), ('UNSPECIFIED'), ('UNSPECIFIED') ) ;
#193 = DIRECTION ( 'NONE',  ( 1.000000000000000000, 0.000000000000000000, -0.000000000000000000 ) ) ;
#194 = AXIS2_PLACEMENT_3D ( 'NONE', #203, #20, #219 ) ;
#195 = CC_DESIGN_PERSON_AND_ORGANIZATION_ASSIGNMENT ( #102, #30, ( #215 ) ) ;
#196 = AXIS2_PLACEMENT_3D ( 'NONE', #226, #208, #148 ) ;
#197 = CARTESIAN_POINT ( 'NONE',  ( -6.000000000000000888, 0.000000000000000000, 1.000000000000000000 ) ) ;
#198 = ORIENTED_EDGE ( 'NONE', *, *, #80, .T. ) ;
#199 = ORIENTED_EDGE ( 'NONE', *, *, #25, .T. ) ;
#200 = DIRECTION ( 'NONE',  ( -0.000000000000000000, -0.000000000000000000, -1.000000000000000000 ) ) ;
#201 = ORIENTED_EDGE ( 'NONE', *, *, #231, .T. ) ;
#202 = AXIS2_PLACEMENT_3D ( 'NONE', #186, #43, #21 ) ;
#203 = CARTESIAN_POINT ( 'NONE',  ( 0.000000000000000000, 0.000000000000000000, 1.000000000000000000 ) ) ;
#204 = CARTESIAN_POINT ( 'NONE',  ( -4.000000000000000000, 0.000000000000000000, 1.000000000000000000 ) ) ;
#205 = CYLINDRICAL_SURFACE ( 'NONE', #29, 4.000000000000000000 ) ;
#206 =( LENGTH_UNIT ( ) NAMED_UNIT ( * ) SI_UNIT ( .MILLI., .METRE. ) );
#207 = SHAPE_DEFINITION_REPRESENTATION ( #118, #113 ) ;
#208 = DIRECTION ( 'NONE',  ( 0.000000000000000000, 0.000000000000000000, 1.000000000000000000 ) ) ;
#209 = AXIS2_PLACEMENT_3D ( 'NONE', #124, #26, #193 ) ;
#210 = APPLICATION_PROTOCOL_DEFINITION ( 'international standard', 'config_control_design', 1994, #50 ) ;
#211 = APPROVAL_DATE_TIME ( #89, #218 ) ;
#212 = APPROVAL ( #248, 'UNSPECIFIED' ) ;
#213 = CIRCLE ( 'NONE', #55, 6.000000000000000888 ) ;
#214 = CARTESIAN_POINT ( 'NONE',  ( 0.000000000000000000, 0.000000000000000000, 1.000000000000000000 ) ) ;
#215 = PRODUCT_DEFINITION_FORMATION_WITH_SPECIFIED_SOURCE ( 'ANY', '', #244, .NOT_KNOWN. ) ;
#216 = CARTESIAN_POINT ( 'NONE',  ( 0.000000000000000000, 0.000000000000000000, 1.000000000000000000 ) ) ;
#217 = APPROVAL ( #68, 'UNSPECIFIED' ) ;
#218 = APPROVAL ( #155, 'UNSPECIFIED' ) ;
#219 = DIRECTION ( 'NONE',  ( 1.000000000000000000, 0.000000000000000000, 0.000000000000000000 ) ) ;
#220 = CARTESIAN_POINT ( 'NONE',  ( -6.000000000000000888, 0.000000000000000000, 1.000000000000000000 ) ) ;
#221 = LINE ( 'NONE', #117, #139 ) ;
#222 = PERSON_AND_ORGANIZATION_ROLE ( 'classification_officer' ) ;
#223 = CARTESIAN_POINT ( 'NONE',  ( -4.000000000000000000, 0.000000000000000000, 1.000000000000000000 ) ) ;
#224 = SECURITY_CLASSIFICATION_LEVEL ( 'unclassified' ) ;
#225 = EDGE_CURVE ( 'NONE', #160, #141, #130, .T. ) ;
#226 = CARTESIAN_POINT ( 'NONE',  ( 0.000000000000000000, 0.000000000000000000, 1.000000000000000000 ) ) ;
#227 = COORDINATED_UNIVERSAL_TIME_OFFSET ( 3, 0, .AHEAD. ) ;
#228 = PRODUCT_RELATED_PRODUCT_CATEGORY ( 'detail', '', ( #244 ) ) ;
#229 = AXIS2_PLACEMENT_3D ( 'NONE', #64, #189, #243 ) ;
#230 = EDGE_LOOP ( 'NONE', ( #56, #115 ) ) ;
#231 = EDGE_CURVE ( 'NONE', #119, #133, #60, .T. ) ;
#232 = ORIENTED_EDGE ( 'NONE', *, *, #25, .F. ) ;
#233 = CYLINDRICAL_SURFACE ( 'NONE', #48, 4.000000000000000000 ) ;
#234 = EDGE_LOOP ( 'NONE', ( #82, #199, #158, #95 ) ) ;
#235 = CC_DESIGN_DATE_AND_TIME_ASSIGNMENT ( #65, #246, ( #94 ) ) ;
#236 = CARTESIAN_POINT ( 'NONE',  ( -4.000000000000000000, 0.000000000000000000, 0.000000000000000000 ) ) ;
#237 = DIRECTION ( 'NONE',  ( -0.000000000000000000, -0.000000000000000000, -1.000000000000000000 ) ) ;
#238 = ORIENTED_EDGE ( 'NONE', *, *, #190, .T. ) ;
#239 = CC_DESIGN_APPROVAL ( #217, ( #90 ) ) ;
#240 = DIRECTION ( 'NONE',  ( 0.000000000000000000, 0.000000000000000000, 1.000000000000000000 ) ) ;
#241 = PERSON_AND_ORGANIZATION ( #192, #11 ) ;
#242 = CALENDAR_DATE ( 2024, 12, 12 ) ;
#243 = DIRECTION ( 'NONE',  ( 1.000000000000000000, 0.000000000000000000, 0.000000000000000000 ) ) ;
#244 = PRODUCT ( 'AL-HD0017-1 Âûñîêîòî÷íàÿ äèñòàíöèîííàÿ øàéáà 8x12 ìì', 'AL-HD0017-1 Âûñîêîòî÷íàÿ äèñòàíöèîííàÿ øàéáà 8x12 ìì', '', ( #107 ) ) ;
#245 = CIRCLE ( 'NONE', #174, 6.000000000000000888 ) ;
#246 = DATE_TIME_ROLE ( 'creation_date' ) ;
#247 = ADVANCED_FACE ( 'NONE', ( #152, #66 ), #27, .F. ) ;
#248 = APPROVAL_STATUS ( 'not_yet_approved' ) ;
#249 = CLOSED_SHELL ( 'NONE', ( #146, #151, #128, #247, #46, #137 ) ) ;
ENDSEC;
END-ISO-10303-21;
